Навигация

RU: 0-9 А Б В Г Д Е Ж З И К Л М Н О П Р С Т У Ф Х Ц Ч Ш Щ Э Ю Я
EN: A B C D E F G H I J K L M N O P Q R S T U V W X Y Z

Ozma - lorraine | текст песни и табы (аккорды) для гитары и Mp3

Видеоклип к песне lorraine | текст песни и табы (аккорды) для гитары и Mp3 - Ozma

Идет поиск видеоклипа в базе...
(при отсутствии ролика в базе, ничего не произойдет)
Ozma - lorraine | текст песни и табы (аккорды) для гитары и Mp3

Текст песни: Ozma - lorraine | текст песни и табы (аккорды) для гитары и Mp3

Получи текст песни

Ozma - lorraine | текст песни и табы (аккорды) для гитары и Mp3

на свой мобильный!

Отправь SMS с текстом 55788-114-4966 на номер 5537.

Предложение действительно для Российских операторов.
Tabbed By: Michelle G. CyberPunk5k
Band: Ozma
Song: Lorraine
Album:

Intro/Bass:
||----------------------------------------------------||
||*-7-7-7-7-7---------------/9-9-9-9-9---------------*||
||*-----------7-9-9-9-9-9-9------------9-7-7-7-7-7-7-*||
||----------------------------------------------------||


||-----------9-7-------------------------------------------------------
||--------10-----10-9-7-----------10-10b-9----9--7-9-10-9---9-7-9-10-9-/
||--6-7-9---------------9-7-6-7-9-------------------------6------------
||---------------------------------------------------------------------/
||---------------------------------------------------------------------
||---------------------------------------------------------------------/


----------------------||
/-9--7-9-10-9---9-10---||
-------------6------6-||
/----------------------||
----------------------||
/----------------------||



Solo:

||-14-12-----------------------14-12-------------------------------||
||------14-12-14-12------------------14-12-14-12---12-14b-15-14-12-||
||------------------14-13-11-9------------------14-----------------||
||-----------------------------------------------------------------||
||-----------------------------------------------------------------||
||-----------------------------------------------------------------||

Ozma - lorraine | текст песни и табы (аккорды) для гитары и Mp3

Скачать песню: Ozma - lorraine | текст песни и табы (аккорды) для гитары и Mp3


Для получения ссылки на скачивание выберите вашу страну
Отправьте SMS с текстом:  на номер:
*Полученный код введите здесь:
*Пожалуйста, укажите свой email:

Ozma - lorraine | текст песни и табы (аккорды) для гитары и Mp3

Ссылки на текст песни: Ozma - lorraine | текст песни и табы (аккорды) для гитары и Mp3

Опубликовать текст песни lorraine | текст песни и табы (аккорды) для гитары и Mp3 в блоге/дневнике/жж (html-код):

Опубликовать текст песни lorraine | текст песни и табы (аккорды) для гитары и Mp3 на форуме (bb-код):

Прямая ссылка на текст песни lorraine | текст песни и табы (аккорды) для гитары и Mp3:
На нашем сайте Вы всегда можете найти самые актуальные тексты песен и скачать любую понравившуюся! Вы можете выбрать из огромного списка именно ту песню, которая нравится Вам или Вашим знакомым. Текст любимой песни можно получить на телефон в виде SMS-сообщения или просто созранить на компьютере. Но мы советуем просто добавить страницу с текстом нужной Вам песни в избранное. Таким образом Вы всегда сможете получить доступ к интересующему Вас тексту песни и следить за его обновлением. В данный момент наша база данных насчитывает более четырехсот тысяч текстов песен различных исполнителей. На каждой странице Вы можете не только бесплатно прочитать текст, но и посмотреть видеоклип любимой песни или же скачать музыкальную композицию на свой компьютер или телефон. Мы следим за развитием музыкальной индустрии и постоянно обновляем и добавляем тексты песен. Если Вы хотите внести какое-либо предложение по дальнейшему развитию ресурса просто сообщите нам об этом на адрес электронной почты, указанный внизу страницы. Помните, что все тексты и музыкальные произведения являются собственностью их авторов!
© 2007-2020 «MuzSupport.com»
Поддержка: support@muzsupport.com
Пожелания и предложения: feedback@muzsupport.com
Размещение рекламы на сайте: adv@muzsupport.com

Рейтинг@Mail.ru

Сейчас вы просматриваете:

текст песни Ozma - lorraine | текст песни и табы (аккорды) для гитары и Mp3

на номер 5537:~171р. без ндс.