Навигация

RU: 0-9 А Б В Г Д Е Ж З И К Л М Н О П Р С Т У Ф Х Ц Ч Ш Щ Э Ю Я
EN: A B C D E F G H I J K L M N O P Q R S T U V W X Y Z

d d smash - whaling | текст песни и табы (аккорды) для гитары и Mp3

Видеоклип к песне whaling | текст песни и табы (аккорды) для гитары и Mp3 - d d smash

Идет поиск видеоклипа в базе...
(при отсутствии ролика в базе, ничего не произойдет)
d d smash - whaling | текст песни и табы (аккорды) для гитары и Mp3

Текст песни: d d smash - whaling | текст песни и табы (аккорды) для гитары и Mp3

Получи текст песни

d d smash - whaling | текст песни и табы (аккорды) для гитары и Mp3

на свой мобильный!

Отправь SMS с текстом 55788-103-22116 на номер 5537.

Предложение действительно для Российских операторов.
From: KEANJ@agresearch.cri.nz (John Kean)

Whaling - DD Smash (Dave Dobyn)
~~~~~~~
Transcribed by John Kean (keanj@agresearch.cri.nz)
based on an earlier version by Sandy Davidson (sandy@waikato.ac.nz).

4/4 time.


INTRO:

Guitar plays:
C G F/A C
, , , , , , , , , , , ,
||------------------------|------------------------|------------------------|
||-------1--3--3s5s3-1----|-------0-h1-----1-------|-------1--3--3s5s5-1----|
||----0-----------------0-|----0--------0----------|----0-----------------0-|
||------------------------|------------------------|------------------------|
||-3----------------------|----------0--------0--2-|-3----------------------|
||------------------------|-3----------------------|------------------------|


G F/A C
, , , , , , , ,
||---------------------3---3h5p3p0---|-3-----------------------|
Violin ||-----------------------------------|----5--3-----3--5--------|
(arranged ||-----------------------------------|----------5--------5--4--|
for ||-----------------------------------|-------------------------|
another ||-----------------------------------|-------------------------|
guitar) ||-----------------------------------|-------------------------|
: : :
: : :
|-----------------------------------|-------------------------|
First |---------0--h1-------1-------------|-------1--3--3s5s3-1-----|
guitar |-----0-----------0-----------------|----0-----------------0--|
continues |-----------------------------------|-------------------------|
|-------------0----------0------2---|-3-----------------------|
|-3---------------------------------|-------------------------|


G F/A C G F/A
, , , , , , , , , , , ,
|------------------------|-------------------------|------------------------||
|------------------------|-------------------------|------------------------||
|-------5-----------4----|-------------------------|------------------------||
|----------7-------------|-5-----------------------|------------------------||
|------------------------|-------------------------|------------------------||
|------------------------|-------------------------|------------------------||
: : : :
: : : :
|------------------------|-------------------------|------------------------||
|-------0-h1-----1-------|-------1---3--3s5s3-1----|-------0-h1-----1-------||
|----0--------0----------|----0------------------0-|----0--------0----------||
|------------------------|-------------------------|------------------------||
|----------0--------0--2-|-3-----------------------|----------0--------0--2-||
|-3----------------------|-------------------------|-3----------------------||
Sing


VERSE 1:
C G F/A C
, , , , , , , , , , , ,
||--------0-----------0----|-------3----------------|-------0-----------0----|
||--------1-----------1----|-------0--------1-------|-------1-----------1----|
||*-------0-----------0----|-------0----------------|-------0-----------0----|
||*------------------------|------------------------|------------------------|
||--3--------------3-------|----------0--------0--2-|-3--------------3-------|
||-------------------------|-3----------------------|------------------------|
"Bravo bravo!" You`re a brave brave man
ship can`t handle The heavy seas


G F/A C G F/A
, , , , , , , , , , , ,
|-------3----------------|-------0-----------0----|-------3-----------------|
|-------0--------1-------|-------1-----------1----|-------0--------1--------|
|-------0----------------|-------0-----------0----|-------0-----------------|
|------------------------|------------------------|-------------------------|
|----------0--------0--2-|-3--------------3-------|----------0--------0--2--|
|-3----------------------|------------------------|-3-----------------------|
I know it`s just bravado Never
Your spirit will get you through No


C G F/A
, , , , , , , ,
|-------0-----------0----|-------3-----------------||
|-------1-----------1----|-------0--------1--------||
|-------0-----------0----|-------0----------------*||
|------------------------|------------------------*||
|-3--------------3-------|----------0--------0--2--||
|------------------------|-3-----------------------||
sink `cause you swim And when your
down on bended knees


VERSE 2:
C G F
You sing "Save me, save me"
C G F
Save me from myself
C G F
I`m the first to get trigger happy
C G F
The first to think of my own health


CHORUS:
F
, , , , , , , ,
||-------------------------|-------------------------|
||-------------------------|-------------------------|
||-------------------------|-------------------------|
||-3--3--3--3--3--3--3--3--|-3--3--3--3--3--3--3--3--|
||-3--3--3--3--3--3--3--3--|-3--3--3--3--3--3--3--3--|
||-1--1--1--1--1--1--1--1--|-1--1--1--1--1--1--1--1--|
`Cause I`m, oh I`m... Cause I`m

C
Whaling, out on the green
F
I`ll never get used to the sea
C
But I`m whaling, manning my harpoon
F
Not where I wanted to be
C
But I`m whaling, I feel like Jonah
F
Never meaning you no harm
C
But I`m whaling, next port of call
F
Back in my sweet babys arms

G (single strum) G (single strum) G (single strum)
In a room, close, savouring our love while we got

, , , ,
||---------------------3---3h5p3p0-|
Violin ||---------------------------------|
(arranged ||---------------------------------|
for another ||---------------------------------|
guitar) ||---------------------------------|
||---------------------------------|
F : :
, , , , : :
|-------------------------|---------------------------------|
|-------------------------|---------------------------------|
|-------------------------|---------------------------------|
|-3--3--3--3--3--3--3--3--|-3---3---3---3---3---3---3---3---|
|-3--3--3--3--3--3--3--3--|-3---3---3---3---3---3---3---3---|
|-1--1--1--1--1--1--1--1--|-1---1---1---1---1---1---1---1---|
Rest and recrea- tion


C G F/A C
, , , , , , , , , , , ,
|-3-----------------------|------------------------|-------------------------|
|----5--3-----3--5--------|------------------------|-------------------------|
|----------5--------5--4--|-------5-----------4----|-------------------------|
|-------------------------|----------7-------------|-5-----------------------|
|-------------------------|------------------------|-------------------------|
|-------------------------|------------------------|-------------------------|
: : : :
: : : :
|-------------------------|------------------------|-------------------------|
|-------1--3--3s5s3-1-----|-------0-h1-----1-------|-------1--3--3s5s3-1-----|
|----0-----------------0--|----0--------0----------|----0-----------------0--|
|-------------------------|------------------------|-------------------------|
|-3-----------------------|----------0--------0--2-|-3-----------------------|
|-------------------------|-3----------------------|-------------------------|


G F/A C
, , , , , , , ,
|---------------------3---3h5p3p0---|-3-----------------------|
|-----------------------------------|----5--3-----3--5--------|
|-----------------------------------|----------5--------5--4--|
|-----------------------------------|-------------------------|
|-----------------------------------|-------------------------|
|-----------------------------------|-------------------------|
: : :
: : :
|-----------------------------------|-------------------------|
|---------0--h1-------1-------------|-------1--3--3s5s3-1-----|
|-----0-----------0-----------------|----0-----------------0--|
|-----------------------------------|-------------------------|
|-------------0----------0------2---|-3-----------------------|
|-3---------------------------------|-------------------------|


G F/A C G F/A
, , , , , , , , , , , ,
|------------------------|-------------------------|------------------------||
|------------------------|-------------------------|------------------------||
|-------5-----------4----|-------------------------|------------------------||
|----------7-------------|-5-----------------------|------------------------||
|------------------------|-------------------------|------------------------||
|------------------------|-------------------------|------------------------||
: : : :
: : : :
|------------------------|-------------------------|------------------------||
|-------0-h1-----1-------|-------1---3--3s5s3-1----|-------0-h1-----1-------||
|----0--------0----------|----0------------------0-|----0--------0----------||
|------------------------|-------------------------|------------------------||
|----------0--------0--2-|-3-----------------------|----------0--------0--2-||
|-3----------------------|-------------------------|-3----------------------||


VERSE 3:
Ooh you sing "Bravo bravo"
Save me from myself
I`m the first to get trigger happy
The first to think of my own health


CHORUS + FADE




John Kean
OO | ~~~~~~~~~
< ) (keanj@agresearch.cri.nz)
/ |
`-

d d smash - whaling | текст песни и табы (аккорды) для гитары и Mp3

Скачать песню: d d smash - whaling | текст песни и табы (аккорды) для гитары и Mp3


Для получения ссылки на скачивание выберите вашу страну
Отправьте SMS с текстом:  на номер:
*Полученный код введите здесь:
*Пожалуйста, укажите свой email:

d d smash - whaling | текст песни и табы (аккорды) для гитары и Mp3

Ссылки на текст песни: d d smash - whaling | текст песни и табы (аккорды) для гитары и Mp3

Опубликовать текст песни whaling | текст песни и табы (аккорды) для гитары и Mp3 в блоге/дневнике/жж (html-код):

Опубликовать текст песни whaling | текст песни и табы (аккорды) для гитары и Mp3 на форуме (bb-код):

Прямая ссылка на текст песни whaling | текст песни и табы (аккорды) для гитары и Mp3:
Еще композиции исполнителя: d d smash

Список песен исполнителя: d d smash

d d smash - whaling | текст песни и табы (аккорды) для гитары и Mp3
На нашем сайте Вы всегда можете найти самые актуальные тексты песен и скачать любую понравившуюся! Вы можете выбрать из огромного списка именно ту песню, которая нравится Вам или Вашим знакомым. Текст любимой песни можно получить на телефон в виде SMS-сообщения или просто созранить на компьютере. Но мы советуем просто добавить страницу с текстом нужной Вам песни в избранное. Таким образом Вы всегда сможете получить доступ к интересующему Вас тексту песни и следить за его обновлением. В данный момент наша база данных насчитывает более четырехсот тысяч текстов песен различных исполнителей. На каждой странице Вы можете не только бесплатно прочитать текст, но и посмотреть видеоклип любимой песни или же скачать музыкальную композицию на свой компьютер или телефон. Мы следим за развитием музыкальной индустрии и постоянно обновляем и добавляем тексты песен. Если Вы хотите внести какое-либо предложение по дальнейшему развитию ресурса просто сообщите нам об этом на адрес электронной почты, указанный внизу страницы. Помните, что все тексты и музыкальные произведения являются собственностью их авторов!
© 2007-2018 «MuzSupport.com»
Поддержка: support@muzsupport.com
Пожелания и предложения: feedback@muzsupport.com
Размещение рекламы на сайте: adv@muzsupport.com

Рейтинг@Mail.ru

Сейчас вы просматриваете:

текст песни d d smash - whaling | текст песни и табы (аккорды) для гитары и Mp3

на номер 5537:~171р. без ндс.